NEW! Jam Session 205n + E Major Pentatonic Scale (Guitar)

The Scale of the Day is E major pentatonic for guitar:



Chords for Jam Session 205n:  E A E B A



Jam Session Notes

Guitar

     E                     A                    E
E  |-0-------------------|-0------------------|-0-------------------|
B  |-0-------------------|-2------------------|-0-------------------|
G  |-1-------------------|-2------------------|-1-------------------|
D  |-2-------------------|-2------------------|-2-------------------|
A  |-2-------------------|-0------------------|-2-------------------|
E  |-0-------------------|--------------------|-0-------------------|


     B         A
E  |-2---------0---------|--------------------|---------------------|
B  |-4---------2---------|--------------------|---------------------|
G  |-4---------2---------|--------------------|---------------------|
D  |-4---------2---------|--------------------|---------------------|
A  |-2---------0---------|--------------------|---------------------|
E  |---------------------|--------------------|---------------------|


Bass

     E                     A                    E
G  |---------------------|--------------------|---------------------|
D  |----6--9--/11--9-----|--------------------|----6--9--/11-9------|
A  |-7-------------------|----4--7--/9--7-----|-7-------------------|
E  |---------------------|-5------------------|---------------------|


     B         A
G  |---------------------|--------------------|---------------------|
D  |---------------------|--------------------|---------------------|
A  |----6--9------4--7---|--------------------|---------------------|
E  |-7---------5---------|--------------------|---------------------|


Jam Session Serving Suggestions:  Try adding some reverb to spice up your sound.  You can use a particularly echo-ey room (like the bathroom), the spring reverb of an amplifier, reverb emulation software, or a good ol' stompbox.

Danelectro DJ-4 Corned Beef Reverb PedalBoss FDR-1 Fender Deluxe Reverb Pedal

Tweet to us @DeRamosMusic!

Podcast Subscribers: If these jam session notes look jumbled, please visit http://www.chorddujour.com - Thanks!